  0
SECTION
  2
HEADER
  9
$ACADVER
  1
AC1009
  9
$INSBASE
 10
78.97833495770909
 20
157.7752600951922
 30
0.0
  9
$EXTMIN
 10
78.97833495770909
 20
157.7752600951922
 30
0.0
  9
$EXTMAX
 10
257.0166509568523
 20
225.528734730521
 30
0.0
  9
$LIMMIN
 10
65.72697308526693
 20
191.1267868530294
  9
$LIMMAX
 10
147.3044215533619
 20
278.686520544143
  9
$ORTHOMODE
 70
     1
  9
$REGENMODE
 70
     1
  9
$FILLMODE
 70
     1
  9
$QTEXTMODE
 70
     0
  9
$MIRRTEXT
 70
     0
  9
$DRAGMODE
 70
     2
  9
$LTSCALE
 40
1.0
  9
$OSMODE
 70
     0
  9
$ATTMODE
 70
     1
  9
$TEXTSIZE
 40
3.5
  9
$TRACEWID
 40
0.05
  9
$TEXTSTYLE
  7
STANDARD
  9
$CLAYER
  8
0
  9
$CELTYPE
  6
BYLAYER
  9
$CECOLOR
 62
   256
  9
$DIMSCALE
 40
1.0
  9
$DIMASZ
 40
2.5
  9
$DIMEXO
 40
1.0
  9
$DIMDLI
 40
8.0
  9
$DIMRND
 40
0.0
  9
$DIMDLE
 40
0.0
  9
$DIMEXE
 40
2.0
  9
$DIMTP
 40
0.1
  9
$DIMTM
 40
0.1
  9
$DIMTXT
 40
3.5
  9
$DIMCEN
 40
2.0
  9
$DIMTSZ
 40
0.0
  9
$DIMTOL
 70
     0
  9
$DIMLIM
 70
     0
  9
$DIMTIH
 70
     0
  9
$DIMTOH
 70
     0
  9
$DIMSE1
 70
     0
  9
$DIMSE2
 70
     0
  9
$DIMTAD
 70
     1
  9
$DIMZIN
 70
     8
  9
$DIMBLK
  1

  9
$DIMASO
 70
     0
  9
$DIMSHO
 70
     0
  9
$DIMPOST
  1

  9
$DIMAPOST
  1

  9
$DIMALT
 70
     0
  9
$DIMALTD
 70
     2
  9
$DIMALTF
 40
25.39999999999999
  9
$DIMLFAC
 40
1.0
  9
$DIMTOFL
 70
     1
  9
$DIMTVP
 40
0.0
  9
$DIMTIX
 70
     0
  9
$DIMSOXD
 70
     0
  9
$DIMSAH
 70
     0
  9
$DIMBLK1
  1

  9
$DIMBLK2
  1

  9
$DIMSTYLE
  2
*UNNAMED
  9
$DIMCLRD
 70
     0
  9
$DIMCLRE
 70
     0
  9
$DIMCLRT
 70
     0
  9
$DIMTFAC
 40
1.0
  9
$DIMGAP
 40
0.09
  9
$LUNITS
 70
     2
  9
$LUPREC
 70
     1
  9
$SKETCHINC
 40
0.1
  9
$FILLETRAD
 40
1.3
  9
$AUNITS
 70
     0
  9
$AUPREC
 70
     1
  9
$MENU
  1

  9
$ELEVATION
 40
0.0
  9
$PELEVATION
 40
0.0
  9
$THICKNESS
 40
0.0
  9
$LIMCHECK
 70
     0
  9
$BLIPMODE
 70
     0
  9
$CHAMFERA
 40
0.0
  9
$CHAMFERB
 40
0.0
  9
$SKPOLY
 70
     1
  9
$TDCREATE
 40
2448875.376012037
  9
$TDUPDATE
 40
2449393.432229861
  9
$TDINDWG
 40
0.0003388889
  9
$TDUSRTIMER
 40
0.0003388889
  9
$USRTIMER
 70
     1
  9
$ANGBASE
 50
0.0
  9
$ANGDIR
 70
     0
  9
$PDMODE
 70
     3
  9
$PDSIZE
 40
2.0
  9
$PLINEWID
 40
0.0
  9
$COORDS
 70
     2
  9
$SPLFRAME
 70
     0
  9
$SPLINETYPE
 70
     6
  9
$SPLINESEGS
 70
     8
  9
$ATTDIA
 70
     1
  9
$ATTREQ
 70
     1
  9
$HANDLING
 70
     0
  9
$HANDSEED
  5
474
  9
$SURFTAB1
 70
     6
  9
$SURFTAB2
 70
     6
  9
$SURFTYPE
 70
     6
  9
$SURFU
 70
     6
  9
$SURFV
 70
     6
  9
$UCSNAME
  2

  9
$UCSORG
 10
0.0
 20
0.0
 30
0.0
  9
$UCSXDIR
 10
1.0
 20
0.0
 30
0.0
  9
$UCSYDIR
 10
0.0
 20
1.0
 30
0.0
  9
$PUCSNAME
  2

  9
$PUCSORG
 10
0.0
 20
0.0
 30
0.0
  9
$PUCSXDIR
 10
1.0
 20
0.0
 30
0.0
  9
$PUCSYDIR
 10
0.0
 20
1.0
 30
0.0
  9
$USERI1
 70
     0
  9
$USERI2
 70
     3
  9
$USERI3
 70
    15
  9
$USERI4
 70
     0
  9
$USERI5
 70
     0
  9
$USERR1
 40
0.0
  9
$USERR2
 40
1.0
  9
$USERR3
 40
0.0
  9
$USERR4
 40
1.0
  9
$USERR5
 40
0.0
  9
$WORLDVIEW
 70
     1
  9
$SHADEDGE
 70
     3
  9
$SHADEDIF
 70
    70
  9
$TILEMODE
 70
     1
  9
$MAXACTVP
 70
    16
  9
$PINSBASE
 10
0.0
 20
0.0
 30
0.0
  9
$PLIMCHECK
 70
     0
  9
$PEXTMIN
 10
1.000000000000000E+20
 20
1.000000000000000E+20
 30
1.000000000000000E+20
  9
$PEXTMAX
 10
-1.000000000000000E+20
 20
-1.000000000000000E+20
 30
-1.000000000000000E+20
  9
$PLIMMIN
 10
0.0
 20
0.0
  9
$PLIMMAX
 10
12.0
 20
9.0
  9
$UNITMODE
 70
     0
  9
$VISRETAIN
 70
     0
  9
$PLINEGEN
 70
     0
  9
$PSLTSCALE
 70
     0
  9
$TREEDEPTH
 70
  3020
  9
$DWGCODEPAGE
  3
undefined
  0
ENDSEC
  0
SECTION
  2
TABLES
  0
TABLE
  2
VPORT
 70
     2
  0
VPORT
  2
*ACTIVE
 70
     0
 10
0.0
 20
0.0
 11
1.0
 21
1.0
 12
167.9974929572807
 22
227.5572271711276
 13
0.0
 23
0.0
 14
7.0
 24
7.0
 15
0.0
 25
0.0
 16
0.0
 26
0.0
 36
1.0
 17
0.0
 27
0.0
 37
0.0
 40
139.5639341518707
 41
1.275675675675675
 42
50.0
 43
0.0
 44
0.0
 50
0.0
 51
0.0
 71
     0
 72
 10000
 73
     1
 74
     0
 75
     0
 76
     0
 77
     0
 78
     0
  0
ENDTAB
  0
TABLE
  2
LTYPE
 70
     2
  0
LTYPE
  2
AUSGEZOGEN
 70
    64
  3
Solid line
 72
    65
 73
     0
 40
0.0
  0
LTYPE
  2
ITEM-STRICHPUNKT
 70
    64
  3
__ . __ . __
 72
    65
 73
     4
 40
3.599999999999999
 49
2.399999999999999
 49
-0.6
 49
0.0
 49
-0.6
  0
ENDTAB
  0
TABLE
  2
LAYER
 70
     4
  0
LAYER
  2
0
 70
     0
 62
     7
  6
AUSGEZOGEN
  0
LAYER
  2
ITEM_50
 70
    64
 62
     7
  6
AUSGEZOGEN
  0
LAYER
  2
ITEM_STP
 70
    64
 62
     4
  6
ITEM-STRICHPUNKT
  0
LAYER
  2
ITEM_25
 70
    64
 62
     3
  6
AUSGEZOGEN
  0
ENDTAB
  0
TABLE
  2
STYLE
 70
     1
  0
STYLE
  2
STANDARD
 70
     0
 40
0.0
 41
1.0
 50
0.0
 71
     0
 42
3.5
  3
iso
  4

  0
ENDTAB
  0
TABLE
  2
VIEW
 70
     0
  0
ENDTAB
  0
TABLE
  2
UCS
 70
     0
  0
ENDTAB
  0
TABLE
  2
APPID
 70
     1
  0
APPID
  2
ACAD
 70
    64
  0
ENDTAB
  0
TABLE
  2
DIMSTYLE
 70
     0
  0
ENDTAB
  0
ENDSEC
  0
SECTION
  2
BLOCKS
  0
ENDSEC
  0
SECTION
  2
ENTITIES
  0
LINE
  8
ITEM_50
 10
97.53901999889679
 20
202.4866045830549
 30
0.0
 11
105.5390199988967
 21
202.4866045830549
 31
0.0
  0
LINE
  8
ITEM_50
 10
97.5390199988968
 20
202.486604583055
 30
0.0
 11
97.5390199988968
 21
202.486604583055
 31
0.0
  0
LINE
  8
ITEM_50
 10
105.5390199988967
 20
202.486604583055
 30
0.0
 11
105.5390199988968
 21
202.4866045830551
 31
0.0
  0
LINE
  8
ITEM_STP
 10
101.539019998896
 20
225.52873473052
 30
0.0
 11
101.539019998896
 21
191.9100564011119
 31
0.0
  0
LINE
  8
ITEM_50
 10
85.13901999889608
 20
203.786604583055
 30
0.0
 11
117.939019998896
 21
203.786604583055
 31
0.0
  0
LINE
  8
ITEM_50
 10
85.13901999889608
 20
203.786604583055
 30
0.0
 11
85.13901999889608
 21
215.786604583055
 31
0.0
  0
LINE
  8
ITEM_50
 10
117.939019998896
 20
203.786604583055
 30
0.0
 11
117.939019998896
 21
215.786604583055
 31
0.0
  0
LINE
  8
ITEM_50
 10
117.939019998896
 20
215.786604583055
 30
0.0
 11
119.439019998896
 21
215.786604583055
 31
0.0
  0
LINE
  8
ITEM_50
 10
119.439019998896
 20
215.786604583055
 30
0.0
 11
119.439019998896
 21
216.836604583055
 31
0.0
  0
LINE
  8
ITEM_50
 10
118.5445928078914
 20
217.286604583055
 30
0.0
 11
118.989019998896
 21
217.286604583055
 31
0.0
  0
LINE
  8
ITEM_50
 10
105.1390199988953
 20
206.786604583055
 30
0.0
 11
113.3390199988953
 21
206.786604583055
 31
0.0
  0
ARC
  8
ITEM_50
 10
118.989019998896
 20
216.836604583055
 30
0.0
 40
0.45
 50
0.0
 51
89.99999999999954
  0
LINE
  8
ITEM_50
 10
118.5445928078914
 20
217.286604583055
 30
0.0
 11
115.8866548041119
 21
217.286604583055
 31
0.0
  0
LINE
  8
ITEM_50
 10
97.28901999889608
 20
223.486604583055
 30
0.0
 11
117.639019998896
 21
223.486604583055
 31
0.0
  0
ARC
  8
ITEM_50
 10
118.4390199988968
 20
218.2866045830556
 30
0.0
 40
1.0
 50
90.0
 51
270.0
  0
LINE
  8
ITEM_50
 10
117.076083842464
 20
220.2866045830547
 30
0.0
 11
118.4890199988968
 21
220.2866045830544
 31
0.0
  0
LINE
  8
ITEM_50
 10
119.4390199988966
 20
219.3366045830542
 30
0.0
 11
119.4390199988966
 21
219.2866045830561
 31
0.0
  0
LINE
  8
ITEM_50
 10
119.4390199988968
 20
219.2866045830561
 30
0.0
 11
118.4390199988968
 21
219.2866045830561
 31
0.0
  0
LINE
  8
ITEM_50
 10
119.439019998896
 20
216.836604583055
 30
0.0
 11
119.439019998896
 21
215.786604583055
 31
0.0
  0
ARC
  8
ITEM_50
 10
118.4890199988966
 20
219.3366045830544
 30
0.0
 40
0.95
 50
359.9999999999902
 51
89.99999999998742
  0
ARC
  8
ITEM_50
 10
89.73901999889679
 20
208.7866045830557
 30
0.0
 40
2.0
 50
183.9760748244955
 51
270.0
  0
LINE
  8
ITEM_50
 10
89.73901999889679
 20
206.786604583055
 30
0.0
 11
97.93901999889679
 21
206.786604583055
 31
0.0
  0
LINE
  8
ITEM_50
 10
86.99954924704208
 20
219.3559444948297
 30
0.0
 11
87.74383381546925
 21
208.6479247595058
 31
0.0
  0
LINE
  8
ITEM_50
 10
116.07849075075
 20
219.3559444948297
 30
0.0
 11
115.3342061823229
 21
208.6479247595058
 31
0.0
  0
ARC
  8
ITEM_50
 10
113.3390199988953
 20
208.7866045830557
 30
0.0
 40
2.0
 50
270.0
 51
356.0239251755044
  0
ARC
  8
ITEM_50
 10
84.63901999889534
 20
218.2866045830556
 30
0.0
 40
1.0
 50
270.0
 51
90.0
  0
LINE
  8
ITEM_50
 10
83.63901999889534
 20
219.2866045830561
 30
0.0
 11
84.63901999889534
 21
219.2866045830561
 31
0.0
  0
ARC
  8
ITEM_50
 10
84.5890199988955
 20
219.3366045830544
 30
0.0
 40
0.95
 50
90.00000000001256
 51
180.0000000000097
  0
LINE
  8
ITEM_50
 10
86.0019561553281
 20
220.2866045830547
 30
0.0
 11
84.58901999889529
 21
220.2866045830544
 31
0.0
  0
LINE
  8
ITEM_50
 10
83.63901999889607
 20
216.836604583055
 30
0.0
 11
83.63901999889607
 21
215.7723488287664
 31
0.0
  0
LINE
  8
ITEM_50
 10
84.08901999889606
 20
217.286604583055
 30
0.0
 11
87.14338328930514
 21
217.286604583055
 31
0.0
  0
LINE
  8
ITEM_50
 10
85.13901999889608
 20
215.786604583055
 30
0.0
 11
83.63901999889608
 21
215.786604583055
 31
0.0
  0
LINE
  8
ITEM_50
 10
85.13901999889608
 20
203.786604583055
 30
0.0
 11
85.13901999889608
 21
215.786604583055
 31
0.0
  0
ARC
  8
ITEM_50
 10
84.08901999889606
 20
216.836604583055
 30
0.0
 40
0.45
 50
90.00000000000045
 51
180.0
  0
ARC
  8
ITEM_50
 10
86.00195615532831
 20
219.2866045830547
 30
0.0
 40
1.0
 50
3.97607482449513
 51
90.00000000001251
  0
ARC
  8
ITEM_50
 10
117.0760838424638
 20
219.2866045830547
 30
0.0
 40
1.0
 50
89.9999999999875
 51
176.0239251755048
  0
ARC
  8
ITEM_50
 10
97.93901999889679
 20
208.7866045830557
 30
0.0
 40
2.0
 50
270.0
 51
356.0239251755248
  0
LINE
  8
ITEM_50
 10
100.8263082726353
 20
221.482594715391
 30
0.0
 11
99.93420618232438
 21
208.6479247595064
 31
0.0
  0
LINE
  8
ITEM_50
 10
100.5346567084854
 20
217.286604583055
 30
0.0
 11
102.5433832893066
 21
217.286604583055
 31
0.0
  0
LINE
  8
ITEM_50
 10
102.2517317251567
 20
221.482594715391
 30
0.0
 11
103.1438338154677
 21
208.6479247595064
 31
0.0
  0
ARC
  8
ITEM_50
 10
105.1390199988953
 20
208.7866045830557
 30
0.0
 40
2.0
 50
183.976074824475
 51
270.0
  0
LINE
  8
ITEM_50
 10
98.57736613725134
 20
222.7916417678686
 30
0.0
 11
96.7116687806704
 21
220.9259444112861
 31
0.0
  0
LINE
  8
ITEM_50
 10
101.539019998896
 20
223.4866045830709
 30
0.0
 11
85.43901999889261
 21
223.4866045830559
 31
0.0
  0
LINE
  8
ITEM_50
 10
81.43901999889635
 20
219.4866045830559
 30
0.0
 11
81.43901999889632
 21
207.9866045830513
 31
0.0
  0
LINE
  8
ITEM_50
 10
82.93901999889635
 20
218.986604583055
 30
0.0
 11
82.93901999889635
 21
214.9866045830554
 31
0.0
  0
LINE
  8
ITEM_50
 10
81.93901999889632
 20
207.4866045830513
 30
0.0
 11
82.93901999889632
 21
207.4866045830513
 31
0.0
  0
ARC
  8
ITEM_50
 10
85.43901999889634
 20
219.4866045830559
 30
0.0
 40
4.0
 50
90.0000000000534
 51
179.9999999999998
  0
ARC
  8
ITEM_50
 10
81.93901999889635
 20
207.9866045830513
 30
0.0
 40
0.5
 50
179.9999999999998
 51
270.0
  0
ARC
  8
ITEM_50
 10
87.6660508771406
 20
218.9874473236917
 30
0.0
 40
0.5
 50
196.7062779351904
 51
318.98928905092
  0
LINE
  8
ITEM_50
 10
87.1871553757269
 20
218.8437145900167
 30
0.0
 11
86.74694432883855
 21
220.4866045830571
 31
0.0
  0
LINE
  8
ITEM_50
 10
89.87246279139469
 20
220.4866045830601
 30
0.0
 11
88.0443398062649
 21
218.6584815979271
 31
0.0
  0
LINE
  8
ITEM_50
 10
95.65100860889154
 20
220.4866045830655
 30
0.0
 11
84.43901999889494
 21
220.4866045830549
 31
0.0
  0
ARC
  8
ITEM_50
 10
121.1390199988957
 20
207.9866045830513
 30
0.0
 40
0.5
 50
270.0
 51
0.0000000000001272
  0
LINE
  8
ITEM_50
 10
121.1390199988958
 20
207.4866045830513
 30
0.0
 11
120.1390199988958
 21
207.4866045830513
 31
0.0
  0
LINE
  8
ITEM_50
 10
120.1390199988957
 20
218.9866045830549
 30
0.0
 11
120.1390199988957
 21
214.9866045830555
 31
0.0
  0
LINE
  8
ITEM_50
 10
121.6390199988957
 20
219.4866045830559
 30
0.0
 11
121.6390199988958
 21
207.9866045830513
 31
0.0
  0
ARC
  8
ITEM_50
 10
117.6390199988957
 20
219.4866045830559
 30
0.0
 40
4.0
 50
0.0000000000001272
 51
89.99999999994659
  0
LINE
  8
ITEM_50
 10
115.8908846220652
 20
218.8437145900167
 30
0.0
 11
116.3310956689535
 21
220.4866045830571
 31
0.0
  0
ARC
  8
ITEM_50
 10
115.4119891206515
 20
218.9874473236917
 30
0.0
 40
0.5
 50
221.0107109490799
 51
343.2937220648095
  0
LINE
  8
ITEM_50
 10
113.2055772063974
 20
220.4866045830601
 30
0.0
 11
115.0337001915272
 21
218.6584815979271
 31
0.0
  0
LINE
  8
ITEM_50
 10
107.4270313889006
 20
220.4866045830655
 30
0.0
 11
118.6390199988971
 21
220.486604583055
 31
0.0
  0
LINE
  8
ITEM_50
 10
104.5006738605568
 20
222.7916417678524
 30
0.0
 11
106.3663712171217
 21
220.9259444112861
 31
0.0
  0
LINE
  8
ITEM_50
 10
101.539019998896
 20
223.4866045830709
 30
0.0
 11
117.6390199988995
 21
223.4866045830559
 31
0.0
  0
LINE
  8
ITEM_50
 10
105.1390199988953
 20
206.786604583055
 30
0.0
 11
113.3390199988953
 21
206.786604583055
 31
0.0
  0
ARC
  8
ITEM_50
 10
99.3299186350647
 20
221.5866045830529
 30
0.0
 40
1.5
 50
356.0239251755244
 51
95.21489265520878
  0
ARC
  8
ITEM_50
 10
103.7481213627274
 20
221.5866045830529
 30
0.0
 40
1.5
 50
84.78510734278968
 51
183.9760748244755
  0
ARC
  8
ITEM_50
 10
99.28447291843818
 20
222.0845349866823
 30
0.0
 40
1.0
 50
95.21489265520882
 51
135.000000000023
  0
ARC
  8
ITEM_50
 10
103.79356707937
 20
222.0845349866662
 30
0.0
 40
1.0
 50
44.99999999997581
 51
84.78510734278971
  0
ARC
  8
ITEM_50
 10
84.43901999889635
 20
218.986604583055
 30
0.0
 40
1.5
 50
90.00000000005388
 51
179.9999999999998
  0
ARC
  8
ITEM_50
 10
118.6390199988957
 20
218.9866045830549
 30
0.0
 40
1.5
 50
0.0000000000001018
 51
89.99999999994611
  0
LINE
  8
ITEM_50
 10
83.37835982711665
 20
212.9259444112757
 30
0.0
 11
84.43901999889708
 21
213.9866045830558
 31
0.0
  0
LINE
  8
ITEM_50
 10
84.43901999889708
 20
213.9866045830558
 30
0.0
 11
84.43901999889708
 21
214.9866045830569
 31
0.0
  0
LINE
  8
ITEM_50
 10
84.43901999889708
 20
214.9866045830569
 30
0.0
 11
82.93901999889634
 21
214.9866045830554
 31
0.0
  0
LINE
  8
ITEM_50
 10
82.93901999889634
 20
211.8652842394957
 30
0.0
 11
82.93901999889632
 21
207.4866045830513
 31
0.0
  0
ARC
  8
ITEM_50
 10
84.43901999889634
 20
211.8652842394957
 30
0.0
 40
1.5
 50
134.9999999999929
 51
179.9999999999998
  0
ARC
  8
ITEM_50
 10
118.6390199988957
 20
211.8652842394957
 30
0.0
 40
1.5
 50
0.0000000000001527
 51
45.00000000000706
  0
LINE
  8
ITEM_50
 10
118.639019998895
 20
214.9866045830569
 30
0.0
 11
120.1390199988957
 21
214.9866045830554
 31
0.0
  0
LINE
  8
ITEM_50
 10
118.639019998895
 20
213.9866045830558
 30
0.0
 11
118.639019998895
 21
214.9866045830569
 31
0.0
  0
LINE
  8
ITEM_50
 10
119.6996801706754
 20
212.9259444112757
 30
0.0
 11
118.639019998895
 21
213.9866045830558
 31
0.0
  0
LINE
  8
ITEM_50
 10
120.1390199988957
 20
211.8652842394957
 30
0.0
 11
120.1390199988958
 21
207.4866045830513
 31
0.0
  0
ARC
  8
ITEM_50
 10
95.65100860889015
 20
221.9866045830655
 30
0.0
 40
1.5
 50
270.0000000000534
 51
315.0000000000236
  0
ARC
  8
ITEM_50
 10
107.427031388902
 20
221.9866045830655
 30
0.0
 40
1.5
 50
224.9999999999765
 51
269.9999999999465
  0
LINE
  8
ITEM_25
 10
103.109519998896
 20
202.4866045830549
 30
0.0
 11
103.109519998896
 21
202.2866045830552
 31
0.0
  0
LINE
  8
ITEM_25
 10
99.96851999889608
 20
202.4866045830549
 30
0.0
 11
99.96851999889608
 21
202.2866045830552
 31
0.0
  0
LINE
  8
ITEM_50
 10
99.53901999889608
 20
193.2161045830548
 30
0.0
 11
103.5390199988961
 21
193.2161045830548
 31
0.0
  0
LINE
  8
ITEM_50
 10
97.93901999889679
 20
206.786604583055
 30
0.0
 11
103.3170689154495
 21
206.786604583055
 31
0.0
  0
LINE
  8
ITEM_50
 10
109.236409821785
 20
199.286604583055
 30
0.0
 11
106.0715843788297
 21
199.286604583055
 31
0.0
  0
ARC
  8
ITEM_50
 10
93.83640982177304
 20
198.986604583055
 30
0.0
 40
0.2999999999999944
 50
90.0
 51
224.9999999999923
  0
LINE
  8
ITEM_50
 10
93.83640982177304
 20
199.286604583055
 30
0.0
 11
97.00123526472835
 21
199.286604583055
 31
0.0
  0
ARC
  8
ITEM_50
 10
97.00123526472835
 20
199.786604583055
 30
0.0
 40
0.5
 50
270.0
 51
355.0000000000005
  0
LINE
  8
ITEM_50
 10
97.49933261377425
 20
199.7430267116812
 30
0.0
 11
97.72186684231486
 21
202.2866045830552
 31
0.0
  0
LINE
  8
ITEM_50
 10
97.72186684231486
 20
202.2866045830553
 30
0.0
 11
105.3509528012432
 21
202.2866045830552
 31
0.0
  0
ARC
  8
ITEM_50
 10
109.236409821785
 20
198.9866045830551
 30
0.0
 40
0.2999999999999545
 50
314.9999999999923
 51
90.0
  0
LINE
  8
ITEM_50
 10
109.4485418561409
 20
198.7744725486991
 30
0.0
 11
105.4606738904969
 21
194.786604583055
 31
0.0
  0
LINE
  8
ITEM_50
 10
105.4606738904969
 20
194.786604583055
 30
0.0
 11
101.536409821779
 21
194.786604583055
 31
0.0
  0
LINE
  8
ITEM_50
 10
101.536409821779
 20
194.786604583055
 30
0.0
 11
97.61214575306117
 21
194.786604583055
 31
0.0
  0
LINE
  8
ITEM_50
 10
97.61214575306117
 20
194.786604583055
 30
0.0
 11
93.62427778741705
 21
198.7744725486991
 31
0.0
  0
ARC
  8
ITEM_50
 10
106.0715843788297
 20
199.786604583055
 30
0.0
 40
0.5
 50
184.9999999999994
 51
270.0
  0
LINE
  8
ITEM_50
 10
105.5734870297838
 20
199.7430267116812
 30
0.0
 11
105.3509528012432
 21
202.2866045830552
 31
0.0
  0
LINE
  8
ITEM_50
 10
96.03901999889612
 20
203.786604583055
 30
0.0
 11
96.23901999889683
 21
203.786604583055
 31
0.0
  0
LINE
  8
ITEM_50
 10
98.03901999889608
 20
210.386604583055
 30
0.0
 11
98.03901999889608
 21
206.786604583055
 31
0.0
  0
LINE
  8
ITEM_50
 10
98.03901999889608
 20
206.786604583055
 30
0.0
 11
105.0390199988961
 21
206.786604583055
 31
0.0
  0
LINE
  8
ITEM_50
 10
105.0390199988961
 20
206.786604583055
 30
0.0
 11
105.0390199988961
 21
210.386604583055
 31
0.0
  0
ARC
  8
ITEM_50
 10
104.6390202977261
 20
210.386604881885
 30
0.0
 40
0.3999997011700437
 50
359.9999571957191
 51
90.00004280429106
  0
LINE
  8
ITEM_50
 10
104.639019998896
 20
210.786604583055
 30
0.0
 11
102.9951801494481
 21
210.786604583055
 31
0.0
  0
ARC
  8
ITEM_50
 10
98.43901970006599
 20
210.3866048818851
 30
0.0
 40
0.3999997011700295
 50
89.99995719571096
 51
180.0000428042849
  0
LINE
  8
ITEM_50
 10
100.0828598483439
 20
210.786604583055
 30
0.0
 11
98.43901999889608
 21
210.786604583055
 31
0.0
  0
LINE
  8
ITEM_25
 10
99.96851999889607
 20
194.786604583055
 30
0.0
 11
99.96851999889607
 21
192.7866045830548
 31
0.0
  0
POLYLINE
  8
ITEM_50
 66
     1
 10
0.0
 20
0.0
 30
0.0
  0
VERTEX
  8
ITEM_50
 10
99.53901999889609
 20
202.4866045830549
 30
0.0
  0
VERTEX
  8
ITEM_50
 10
99.53901999889609
 20
202.2866045830553
 30
0.0
  0
SEQEND
  8
ITEM_50
  0
POLYLINE
  8
ITEM_50
 66
     1
 10
0.0
 20
0.0
 30
0.0
  0
VERTEX
  8
ITEM_50
 10
99.53901999889608
 20
194.786604583055
 30
0.0
  0
VERTEX
  8
ITEM_50
 10
99.53901999889608
 20
193.2161045830548
 30
0.0
  0
VERTEX
  8
ITEM_50
 10
99.96851999889607
 20
192.7866045830548
 30
0.0
  0
VERTEX
  8
ITEM_50
 10
103.109519998896
 20
192.7866045830548
 30
0.0
  0
VERTEX
  8
ITEM_50
 10
103.5390199988961
 20
193.2161045830548
 30
0.0
  0
VERTEX
  8
ITEM_50
 10
103.5390199988961
 20
194.786604583055
 30
0.0
  0
SEQEND
  8
ITEM_50
  0
POLYLINE
  8
ITEM_50
 66
     1
 10
0.0
 20
0.0
 30
0.0
  0
VERTEX
  8
ITEM_50
 10
103.5390199988961
 20
202.2866045830552
 30
0.0
  0
VERTEX
  8
ITEM_50
 10
103.5390199988961
 20
202.4866045830549
 30
0.0
  0
SEQEND
  8
ITEM_50
  0
LINE
  8
ITEM_25
 10
103.109519998896
 20
194.786604583055
 30
0.0
 11
103.109519998896
 21
192.7866045830548
 31
0.0
  0
LINE
  8
ITEM_25
 10
205.4868504552101
 20
202.4866045830549
 30
0.0
 11
205.4868504552101
 21
192.7866045830548
 31
0.0
  0
LINE
  8
ITEM_25
 10
202.3458504552101
 20
202.4866045830549
 30
0.0
 11
202.3458504552101
 21
192.7866045830548
 31
0.0
  0
LINE
  8
ITEM_50
 10
202.460190304658
 20
210.786604583055
 30
0.0
 11
200.8163504552101
 21
210.786604583055
 31
0.0
  0
ARC
  8
ITEM_50
 10
200.81635015638
 20
210.3866048818851
 30
0.0
 40
0.3999997011700295
 50
89.99995719571096
 51
180.0000428042849
  0
LINE
  8
ITEM_50
 10
207.0163504552101
 20
210.786604583055
 30
0.0
 11
205.3725106057622
 21
210.786604583055
 31
0.0
  0
ARC
  8
ITEM_50
 10
207.0163507540402
 20
210.386604881885
 30
0.0
 40
0.3999997011700437
 50
359.9999571957191
 51
90.00004280429106
  0
LINE
  8
ITEM_50
 10
207.4163504552101
 20
206.786604583055
 30
0.0
 11
207.4163504552101
 21
210.386604583055
 31
0.0
  0
LINE
  8
ITEM_50
 10
200.4163504552101
 20
206.786604583055
 30
0.0
 11
207.4163504552101
 21
206.786604583055
 31
0.0
  0
LINE
  8
ITEM_50
 10
200.4163504552101
 20
210.386604583055
 30
0.0
 11
200.4163504552101
 21
206.786604583055
 31
0.0
  0
LINE
  8
ITEM_50
 10
198.4163504552101
 20
203.786604583055
 30
0.0
 11
209.4163504552101
 21
203.786604583055
 31
0.0
  0
LINE
  8
ITEM_50
 10
200.3163504552108
 20
206.786604583055
 30
0.0
 11
205.6943993717636
 21
206.786604583055
 31
0.0
  0
LINE
  8
ITEM_50
 10
201.9163504552101
 20
193.2161045830548
 30
0.0
 11
205.9163504552101
 21
193.2161045830548
 31
0.0
  0
ARC
  8
ITEM_50
 10
209.804361845216
 20
221.9866045830655
 30
0.0
 40
1.5
 50
224.9999999999765
 51
269.9999999999465
  0
ARC
  8
ITEM_50
 10
198.0283390652042
 20
221.9866045830655
 30
0.0
 40
1.5
 50
270.0000000000534
 51
315.0000000000236
  0
LINE
  8
ITEM_50
 10
222.5163504552098
 20
211.8652842394957
 30
0.0
 11
222.5163504552098
 21
207.4866045830513
 31
0.0
  0
LINE
  8
ITEM_50
 10
222.0770106269895
 20
212.9259444112757
 30
0.0
 11
221.0163504552091
 21
213.9866045830558
 31
0.0
  0
LINE
  8
ITEM_50
 10
221.0163504552091
 20
213.9866045830558
 30
0.0
 11
221.0163504552091
 21
214.9866045830569
 31
0.0
  0
LINE
  8
ITEM_50
 10
221.0163504552091
 20
214.9866045830569
 30
0.0
 11
222.5163504552098
 21
214.9866045830554
 31
0.0
  0
ARC
  8
ITEM_50
 10
221.0163504552098
 20
211.8652842394957
 30
0.0
 40
1.5
 50
0.0000000000001527
 51
45.00000000000706
  0
ARC
  8
ITEM_50
 10
186.8163504552104
 20
211.8652842394957
 30
0.0
 40
1.5
 50
134.9999999999929
 51
179.9999999999998
  0
LINE
  8
ITEM_50
 10
185.3163504552104
 20
211.8652842394957
 30
0.0
 11
185.3163504552103
 21
207.4866045830513
 31
0.0
  0
LINE
  8
ITEM_50
 10
186.8163504552111
 20
214.9866045830569
 30
0.0
 11
185.3163504552104
 21
214.9866045830554
 31
0.0
  0
LINE
  8
ITEM_50
 10
186.8163504552111
 20
213.9866045830558
 30
0.0
 11
186.8163504552111
 21
214.9866045830569
 31
0.0
  0
LINE
  8
ITEM_50
 10
185.7556902834307
 20
212.9259444112757
 30
0.0
 11
186.8163504552111
 21
213.9866045830558
 31
0.0
  0
ARC
  8
ITEM_50
 10
221.0163504552098
 20
218.9866045830549
 30
0.0
 40
1.5
 50
0.0000000000001018
 51
89.99999999994611
  0
ARC
  8
ITEM_50
 10
186.8163504552104
 20
218.986604583055
 30
0.0
 40
1.5
 50
90.00000000005388
 51
179.9999999999998
  0
ARC
  8
ITEM_50
 10
206.1708975356841
 20
222.0845349866662
 30
0.0
 40
1.0
 50
44.99999999997581
 51
84.78510734278971
  0
ARC
  8
ITEM_50
 10
201.6618033747522
 20
222.0845349866823
 30
0.0
 40
1.0
 50
95.21489265520882
 51
135.000000000023
  0
ARC
  8
ITEM_50
 10
206.1254518190415
 20
221.5866045830529
 30
0.0
 40
1.5
 50
84.78510734278968
 51
183.9760748244755
  0
ARC
  8
ITEM_50
 10
201.7072490913787
 20
221.5866045830529
 30
0.0
 40
1.5
 50
356.0239251755244
 51
95.21489265520878
  0
LINE
  8
ITEM_50
 10
207.5163504552094
 20
206.786604583055
 30
0.0
 11
215.7163504552094
 21
206.786604583055
 31
0.0
  0
LINE
  8
ITEM_50
 10
203.9163504552101
 20
223.4866045830709
 30
0.0
 11
220.0163504552135
 21
223.4866045830559
 31
0.0
  0
LINE
  8
ITEM_50
 10
206.8780043168709
 20
222.7916417678524
 30
0.0
 11
208.7437016734358
 21
220.9259444112861
 31
0.0
  0
LINE
  8
ITEM_50
 10
209.8043618452146
 20
220.4866045830655
 30
0.0
 11
221.0163504552112
 21
220.486604583055
 31
0.0
  0
LINE
  8
ITEM_50
 10
215.5829076627115
 20
220.4866045830601
 30
0.0
 11
217.4110306478413
 21
218.6584815979271
 31
0.0
  0
ARC
  8
ITEM_50
 10
217.7893195769655
 20
218.9874473236917
 30
0.0
 40
0.5
 50
221.0107109490799
 51
343.2937220648095
  0
LINE
  8
ITEM_50
 10
218.2682150783793
 20
218.8437145900167
 30
0.0
 11
218.7084261252676
 21
220.4866045830571
 31
0.0
  0
ARC
  8
ITEM_50
 10
220.0163504552098
 20
219.4866045830559
 30
0.0
 40
4.0
 50
0.0000000000001272
 51
89.99999999994659
  0
LINE
  8
ITEM_50
 10
224.0163504552098
 20
219.4866045830559
 30
0.0
 11
224.0163504552098
 21
207.9866045830513
 31
0.0
  0
LINE
  8
ITEM_50
 10
222.5163504552098
 20
218.9866045830549
 30
0.0
 11
222.5163504552098
 21
214.9866045830555
 31
0.0
  0
LINE
  8
ITEM_50
 10
223.5163504552098
 20
207.4866045830513
 30
0.0
 11
222.5163504552098
 21
207.4866045830513
 31
0.0
  0
ARC
  8
ITEM_50
 10
223.5163504552098
 20
207.9866045830513
 30
0.0
 40
0.5
 50
270.0
 51
0.0000000000001272
  0
LINE
  8
ITEM_50
 10
198.0283390652056
 20
220.4866045830655
 30
0.0
 11
186.816350455209
 21
220.4866045830549
 31
0.0
  0
LINE
  8
ITEM_50
 10
192.2497932477087
 20
220.4866045830601
 30
0.0
 11
190.4216702625789
 21
218.6584815979271
 31
0.0
  0
LINE
  8
ITEM_50
 10
189.5644858320409
 20
218.8437145900167
 30
0.0
 11
189.1242747851526
 21
220.4866045830571
 31
0.0
  0
ARC
  8
ITEM_50
 10
190.0433813334546
 20
218.9874473236917
 30
0.0
 40
0.5
 50
196.7062779351904
 51
318.98928905092
  0
ARC
  8
ITEM_50
 10
184.3163504552104
 20
207.9866045830513
 30
0.0
 40
0.5
 50
179.9999999999998
 51
270.0
  0
ARC
  8
ITEM_50
 10
187.8163504552104
 20
219.4866045830559
 30
0.0
 40
4.0
 50
90.0000000000534
 51
179.9999999999998
  0
LINE
  8
ITEM_50
 10
184.3163504552103
 20
207.4866045830513
 30
0.0
 11
185.3163504552103
 21
207.4866045830513
 31
0.0
  0
LINE
  8
ITEM_50
 10
185.3163504552104
 20
218.986604583055
 30
0.0
 11
185.3163504552104
 21
214.9866045830554
 31
0.0
  0
LINE
  8
ITEM_50
 10
183.8163504552104
 20
219.4866045830559
 30
0.0
 11
183.8163504552103
 21
207.9866045830513
 31
0.0
  0
LINE
  8
ITEM_50
 10
203.9163504552101
 20
223.4866045830709
 30
0.0
 11
187.8163504552066
 21
223.4866045830559
 31
0.0
  0
LINE
  8
ITEM_50
 10
200.9546965935654
 20
222.7916417678686
 30
0.0
 11
199.0889992369844
 21
220.9259444112861
 31
0.0
  0
ARC
  8
ITEM_50
 10
207.5163504552094
 20
208.7866045830557
 30
0.0
 40
2.0
 50
183.976074824475
 51
270.0
  0
LINE
  8
ITEM_50
 10
204.6290621814708
 20
221.482594715391
 30
0.0
 11
205.5211642717818
 21
208.6479247595064
 31
0.0
  0
LINE
  8
ITEM_50
 10
202.9119871647995
 20
217.286604583055
 30
0.0
 11
204.9207137456207
 21
217.286604583055
 31
0.0
  0
LINE
  8
ITEM_50
 10
203.2036387289494
 20
221.482594715391
 30
0.0
 11
202.3115366386384
 21
208.6479247595064
 31
0.0
  0
ARC
  8
ITEM_50
 10
200.3163504552108
 20
208.7866045830557
 30
0.0
 40
2.0
 50
270.0
 51
356.0239251755248
  0
ARC
  8
ITEM_50
 10
219.4534142987779
 20
219.2866045830547
 30
0.0
 40
1.0
 50
89.9999999999875
 51
176.0239251755048
  0
ARC
  8
ITEM_50
 10
188.3792866116423
 20
219.2866045830547
 30
0.0
 40
1.0
 50
3.97607482449513
 51
90.00000000001251
  0
ARC
  8
ITEM_50
 10
186.4663504552101
 20
216.836604583055
 30
0.0
 40
0.45
 50
90.00000000000045
 51
180.0
  0
LINE
  8
ITEM_50
 10
187.5163504552101
 20
203.786604583055
 30
0.0
 11
187.5163504552101
 21
215.786604583055
 31
0.0
  0
LINE
  8
ITEM_50
 10
187.5163504552101
 20
215.786604583055
 30
0.0
 11
186.0163504552101
 21
215.786604583055
 31
0.0
  0
LINE
  8
ITEM_50
 10
186.4663504552101
 20
217.286604583055
 30
0.0
 11
189.5207137456192
 21
217.286604583055
 31
0.0
  0
LINE
  8
ITEM_50
 10
186.0163504552101
 20
216.836604583055
 30
0.0
 11
186.0163504552101
 21
215.7723488287664
 31
0.0
  0
LINE
  8
ITEM_50
 10
188.3792866116421
 20
220.2866045830547
 30
0.0
 11
186.9663504552093
 21
220.2866045830544
 31
0.0
  0
ARC
  8
ITEM_50
 10
186.9663504552095
 20
219.3366045830544
 30
0.0
 40
0.95
 50
90.00000000001256
 51
180.0000000000097
  0
LINE
  8
ITEM_50
 10
186.0163504552094
 20
219.2866045830561
 30
0.0
 11
187.0163504552094
 21
219.2866045830561
 31
0.0
  0
ARC
  8
ITEM_50
 10
187.0163504552094
 20
218.2866045830556
 30
0.0
 40
1.0
 50
270.0
 51
90.0
  0
ARC
  8
ITEM_50
 10
215.7163504552094
 20
208.7866045830557
 30
0.0
 40
2.0
 50
270.0
 51
356.0239251755044
  0
LINE
  8
ITEM_50
 10
218.4558212070641
 20
219.3559444948297
 30
0.0
 11
217.7115366386369
 21
208.6479247595058
 31
0.0
  0
LINE
  8
ITEM_50
 10
189.3768797033561
 20
219.3559444948297
 30
0.0
 11
190.1211642717833
 21
208.6479247595058
 31
0.0
  0
LINE
  8
ITEM_50
 10
192.1163504552108
 20
206.786604583055
 30
0.0
 11
200.3163504552108
 21
206.786604583055
 31
0.0
  0
ARC
  8
ITEM_50
 10
192.1163504552108
 20
208.7866045830557
 30
0.0
 40
2.0
 50
183.9760748244955
 51
270.0
  0
ARC
  8
ITEM_50
 10
220.8663504552107
 20
219.3366045830544
 30
0.0
 40
0.95
 50
359.9999999999902
 51
89.99999999998742
  0
LINE
  8
ITEM_50
 10
221.8163504552101
 20
216.836604583055
 30
0.0
 11
221.8163504552101
 21
215.786604583055
 31
0.0
  0
LINE
  8
ITEM_50
 10
221.8163504552108
 20
219.2866045830561
 30
0.0
 11
220.8163504552108
 21
219.2866045830561
 31
0.0
  0
LINE
  8
ITEM_50
 10
221.8163504552107
 20
219.3366045830542
 30
0.0
 11
221.8163504552107
 21
219.2866045830561
 31
0.0
  0
LINE
  8
ITEM_50
 10
219.4534142987781
 20
220.2866045830547
 30
0.0
 11
220.8663504552109
 21
220.2866045830544
 31
0.0
  0
ARC
  8
ITEM_50
 10
220.8163504552108
 20
218.2866045830556
 30
0.0
 40
1.0
 50
90.0
 51
270.0
  0
LINE
  8
ITEM_50
 10
199.6663504552101
 20
223.486604583055
 30
0.0
 11
220.0163504552101
 21
223.486604583055
 31
0.0
  0
LINE
  8
ITEM_50
 10
220.9219232642055
 20
217.286604583055
 30
0.0
 11
218.263985260426
 21
217.286604583055
 31
0.0
  0
ARC
  8
ITEM_50
 10
221.3663504552101
 20
216.836604583055
 30
0.0
 40
0.45
 50
0.0
 51
89.99999999999954
  0
LINE
  8
ITEM_50
 10
207.5163504552094
 20
206.786604583055
 30
0.0
 11
215.7163504552094
 21
206.786604583055
 31
0.0
  0
LINE
  8
ITEM_50
 10
220.9219232642055
 20
217.286604583055
 30
0.0
 11
221.3663504552101
 21
217.286604583055
 31
0.0
  0
LINE
  8
ITEM_50
 10
221.8163504552101
 20
215.786604583055
 30
0.0
 11
221.8163504552101
 21
216.836604583055
 31
0.0
  0
LINE
  8
ITEM_50
 10
220.3163504552101
 20
215.786604583055
 30
0.0
 11
221.8163504552101
 21
215.786604583055
 31
0.0
  0
LINE
  8
ITEM_50
 10
220.3163504552101
 20
203.786604583055
 30
0.0
 11
220.3163504552101
 21
215.786604583055
 31
0.0
  0
LINE
  8
ITEM_50
 10
187.5163504552101
 20
203.786604583055
 30
0.0
 11
187.5163504552101
 21
215.786604583055
 31
0.0
  0
LINE
  8
ITEM_50
 10
187.5163504552101
 20
203.786604583055
 30
0.0
 11
198.6163504552108
 21
203.786604583055
 31
0.0
  0
LINE
  8
ITEM_STP
 10
203.9163504552101
 20
225.52873473052
 30
0.0
 11
203.9163504552101
 21
191.9100564011119
 31
0.0
  0
LINE
  8
ITEM_50
 10
207.9163504552108
 20
202.486604583055
 30
0.0
 11
207.9163504552108
 21
202.486604583055
 31
0.0
  0
LINE
  8
ITEM_50
 10
199.9163504552108
 20
202.486604583055
 30
0.0
 11
199.9163504552108
 21
202.486604583055
 31
0.0
  0
LINE
  8
ITEM_50
 10
199.9163504552108
 20
202.4866045830549
 30
0.0
 11
207.9163504552108
 21
202.4866045830549
 31
0.0
  0
LINE
  8
ITEM_50
 10
154.6393205005383
 20
223.4866045830559
 30
0.0
 11
138.6393205005383
 21
223.4866045830559
 31
0.0
  0
LINE
  8
ITEM_50
 10
154.6393205005383
 20
203.786604583055
 30
0.0
 11
151.939320500539
 21
203.786604583055
 31
0.0
  0
LINE
  8
ITEM_50
 10
138.6393205005383
 20
223.4866045830559
 30
0.0
 11
138.6393205005383
 21
203.786604583055
 31
0.0
  0
LINE
  8
ITEM_50
 10
154.6393205005383
 20
223.4866045830559
 30
0.0
 11
154.6393205005383
 21
203.786604583055
 31
0.0
  0
LINE
  8
ITEM_50
 10
150.639320500539
 20
202.2866045830402
 30
0.0
 11
150.639320500539
 21
202.2866045830552
 31
0.0
  0
LINE
  8
ITEM_50
 10
142.639320500539
 20
202.2866045830402
 30
0.0
 11
142.639320500539
 21
202.2866045830553
 31
0.0
  0
LINE
  8
ITEM_50
 10
142.639320500539
 20
202.2866045830402
 30
0.0
 11
150.639320500539
 21
202.2866045830402
 31
0.0
  0
LINE
  8
ITEM_STP
 10
146.6393205005383
 20
225.5287347305049
 30
0.0
 11
146.6393205005383
 21
191.9100564010969
 31
0.0
  0
LINE
  8
ITEM_25
 10
148.2098205005383
 20
194.78660458304
 30
0.0
 11
148.2098205005383
 21
192.7866045830397
 31
0.0
  0
POLYLINE
  8
ITEM_50
 66
     1
 10
0.0
 20
0.0
 30
0.0
  0
VERTEX
  8
ITEM_50
 10
144.6393205005383
 20
194.78660458304
 30
0.0
  0
VERTEX
  8
ITEM_50
 10
144.6393205005383
 20
193.2161045830397
 30
0.0
  0
VERTEX
  8
ITEM_50
 10
145.0688205005383
 20
192.7866045830397
 30
0.0
  0
VERTEX
  8
ITEM_50
 10
148.2098205005383
 20
192.7866045830397
 30
0.0
  0
VERTEX
  8
ITEM_50
 10
148.6393205005383
 20
193.2161045830397
 30
0.0
  0
VERTEX
  8
ITEM_50
 10
148.6393205005383
 20
194.78660458304
 30
0.0
  0
SEQEND
  8
ITEM_50
  0
LINE
  8
ITEM_25
 10
145.0688205005383
 20
194.78660458304
 30
0.0
 11
145.0688205005383
 21
192.7866045830397
 31
0.0
  0
LINE
  8
ITEM_50
 10
144.6393205005383
 20
193.2161045830397
 30
0.0
 11
148.6393205005383
 21
193.2161045830397
 31
0.0
  0
LINE
  8
ITEM_50
 10
154.6393205005383
 20
207.4866045830513
 30
0.0
 11
138.6393205005383
 21
207.4866045830513
 31
0.0
  0
LINE
  8
ITEM_50
 10
106.8390199988967
 20
203.7866045830551
 30
0.0
 11
107.039019998896
 21
203.786604583055
 31
0.0
  0
ARC
  8
ITEM_50
 10
96.2390199988968
 20
202.486604583055
 30
0.0
 40
1.3
 50
0.0
 51
89.9999999999989
  0
ARC
  8
ITEM_50
 10
106.8390199988968
 20
202.4866045830551
 30
0.0
 40
1.3
 50
90.00000000000108
 51
180.0
  0
LINE
  8
ITEM_50
 10
209.2163504552108
 20
203.786604583055
 30
0.0
 11
220.3163504552101
 21
203.786604583055
 31
0.0
  0
ARC
  8
ITEM_50
 10
198.6163504552108
 20
202.486604583055
 30
0.0
 40
1.3
 50
0.0
 51
90.0
  0
ARC
  8
ITEM_50
 10
209.2163504552108
 20
202.486604583055
 30
0.0
 40
1.3
 50
89.99999999999987
 51
180.0
  0
LINE
  8
ITEM_50
 10
141.339320500539
 20
203.786604583055
 30
0.0
 11
138.6393205005383
 21
203.786604583055
 31
0.0
  0
ARC
  8
ITEM_50
 10
141.339320500539
 20
202.486604583055
 30
0.0
 40
1.3
 50
0.0
 51
90.0
  0
ARC
  8
ITEM_50
 10
151.939320500539
 20
202.4866045830549
 30
0.0
 40
1.3
 50
90.0
 51
180.0
  0
LINE
  8
ITEM_50
 10
141.339320500539
 20
203.786604583055
 30
0.0
 11
151.939320500539
 21
203.786604583055
 31
0.0
  0
LINE
  8
ITEM_50
 10
81.43901999889635
 20
179.3614036665659
 30
0.0
 11
81.43901999889635
 21
163.3614036665659
 31
0.0
  0
LINE
  8
ITEM_50
 10
121.6390199988957
 20
179.3614036665659
 30
0.0
 11
121.6390199988957
 21
163.3614036665659
 31
0.0
  0
LINE
  8
ITEM_50
 10
81.43901999889635
 20
179.3614036665659
 30
0.0
 11
121.6390199988958
 21
179.3614036665659
 31
0.0
  0
LINE
  8
ITEM_50
 10
81.43901999889637
 20
163.3614036665659
 30
0.0
 11
121.6390199988958
 21
163.3614036665659
 31
0.0
  0
LINE
  8
ITEM_STP
 10
101.539019998896
 20
181.4644938671607
 30
0.0
 11
101.539019998896
 21
161.2166247549245
 31
0.0
  0
LINE
  8
ITEM_STP
 10
123.0882293816531
 20
171.3614036665659
 30
0.0
 11
78.97833495770909
 21
171.3614036665659
 31
0.0
  0
CIRCLE
  8
ITEM_50
 10
101.539019998896
 20
171.3614036665659
 30
0.0
 40
4.0
  0
CIRCLE
  8
ITEM_50
 10
101.539019998896
 20
171.3614036665659
 30
0.0
 40
2.1
  0
LINE
  8
ITEM_50
 10
148.8529521890885
 20
198.788698734781
 30
0.0
 11
145.3400028781159
 21
194.78660458304
 31
0.0
  0
ARC
  8
ITEM_50
 10
148.6274898303124
 20
198.98660458304
 30
0.0
 40
0.3000000000000043
 50
318.7240579727484
 51
90.0
  0
ARC
  8
ITEM_50
 10
156.9946315843114
 20
199.78660458304
 30
0.0
 40
0.4999999999999928
 50
184.9661761479656
 51
270.0
  0
LINE
  8
ITEM_50
 10
156.2755129043335
 20
202.2866045830402
 30
0.0
 11
156.4965085964048
 21
199.743320764828
 31
0.0
  0
LINE
  8
ITEM_50
 10
145.1032257615861
 20
202.2866045830402
 30
0.0
 11
156.2755129043335
 21
202.2866045830402
 31
0.0
  0
LINE
  8
ITEM_50
 10
133.3531769291646
 20
199.28660458304
 30
0.0
 11
136.2841087172099
 21
199.28660458304
 31
0.0
  0
ARC
  8
ITEM_50
 10
133.3531769291646
 20
198.98660458304
 30
0.0
 40
0.3000000000000122
 50
90.0
 51
222.1677372336725
  0
LINE
  8
ITEM_50
 10
136.752438639194
 20
194.78660458304
 30
0.0
 11
133.1308221134719
 21
198.785213580415
 31
0.0
  0
LINE
  8
ITEM_50
 10
156.6380259521456
 20
194.78660458304
 30
0.0
 11
136.752438639194
 21
194.78660458304
 31
0.0
  0
LINE
  8
ITEM_50
 10
160.1509752631182
 20
198.7886987347809
 30
0.0
 11
156.6380259521456
 21
194.78660458304
 31
0.0
  0
ARC
  8
ITEM_50
 10
159.9255129043421
 20
198.9866045830399
 30
0.0
 40
0.3000000000000043
 50
318.7240579727484
 51
90.0
  0
LINE
  8
ITEM_50
 10
145.8223444415639
 20
199.28660458304
 30
0.0
 11
159.9255129043421
 21
199.28660458304
 31
0.0
  0
ARC
  8
ITEM_50
 10
145.8223444415639
 20
199.78660458304
 30
0.0
 40
0.4999999999999928
 50
184.9661761479656
 51
270.0
  0
LINE
  8
ITEM_50
 10
145.1032257615861
 20
202.2866045830402
 30
0.0
 11
145.3242214536573
 21
199.743320764828
 31
0.0
  0
LINE
  8
ITEM_50
 10
137.003225761586
 20
202.2866045830402
 30
0.0
 11
145.1032257615861
 21
202.2866045830402
 31
0.0
  0
LINE
  8
ITEM_50
 10
136.7822300695146
 20
199.743320764828
 30
0.0
 11
137.003225761586
 21
202.2866045830402
 31
0.0
  0
ARC
  8
ITEM_50
 10
136.284107081608
 20
199.78660458304
 30
0.0
 40
0.5
 50
270.0000000000007
 51
355.0338238520336
  0
LINE
  8
ITEM_50
 10
99.12516357026977
 20
163.3614036665659
 30
0.0
 11
93.53901999889605
 21
157.7752600951922
 31
0.0
  0
LINE
  8
ITEM_50
 10
103.9528764275223
 20
179.3614036665659
 30
0.0
 11
109.539019998896
 21
184.9475472379396
 31
0.0
  0
LINE
  8
ITEM_50
 10
105.539019998896
 20
180.9475472379396
 30
0.0
 11
105.539019998896
 21
179.3614036665659
 31
0.0
  0
LINE
  8
ITEM_50
 10
97.53901999889602
 20
163.3614036665659
 30
0.0
 11
97.53901999889602
 21
161.7752600951922
 31
0.0
  0
LINE
  8
ITEM_50
 10
93.53901999889605
 20
157.7752600951922
 30
0.0
 11
93.53901999889605
 21
163.3614036665659
 31
0.0
  0
LINE
  8
ITEM_50
 10
109.539019998896
 20
184.9475472379396
 30
0.0
 11
109.539019998896
 21
179.3614036665659
 31
0.0
  0
LINE
  8
ITEM_STP
 10
101.539019998896
 20
171.3614036665659
 30
0.0
 11
101.539019998896
 21
169.223339877061
 31
0.0
  0
LINE
  8
ITEM_STP
 10
203.9163504552101
 20
171.3614036665819
 30
0.0
 11
203.9163504552101
 21
169.223339877077
 31
0.0
  0
CIRCLE
  8
ITEM_50
 10
203.9163504552101
 20
171.3614036665819
 30
0.0
 40
2.1
  0
CIRCLE
  8
ITEM_50
 10
203.9163504552101
 20
171.3614036665819
 30
0.0
 40
4.0
  0
LINE
  8
ITEM_STP
 10
225.4655598379671
 20
171.3614036665819
 30
0.0
 11
181.3556654140231
 21
171.3614036665819
 31
0.0
  0
LINE
  8
ITEM_STP
 10
203.9163504552101
 20
181.4644938671767
 30
0.0
 11
203.9163504552101
 21
161.2166247549405
 31
0.0
  0
LINE
  8
ITEM_50
 10
183.8163504552104
 20
163.3614036665819
 30
0.0
 11
224.0163504552098
 21
163.361403666582
 31
0.0
  0
LINE
  8
ITEM_50
 10
183.8163504552103
 20
179.3614036665819
 30
0.0
 11
224.0163504552098
 21
179.361403666582
 31
0.0
  0
LINE
  8
ITEM_50
 10
224.0163504552098
 20
179.361403666582
 30
0.0
 11
224.0163504552098
 21
163.361403666582
 31
0.0
  0
LINE
  8
ITEM_50
 10
183.8163504552103
 20
179.3614036665819
 30
0.0
 11
183.8163504552103
 21
163.3614036665819
 31
0.0
  0
LINE
  8
ITEM_50
 10
243.7166509568531
 20
203.786604583071
 30
0.0
 11
254.316650956853
 21
203.786604583071
 31
0.0
  0
ARC
  8
ITEM_50
 10
254.316650956853
 20
202.486604583071
 30
0.0
 40
1.3
 50
90.0
 51
180.0
  0
ARC
  8
ITEM_50
 10
243.7166509568531
 20
202.486604583071
 30
0.0
 40
1.3
 50
0.0
 51
90.0
  0
LINE
  8
ITEM_50
 10
243.7166509568531
 20
203.786604583071
 30
0.0
 11
241.0166509568523
 21
203.786604583071
 31
0.0
  0
LINE
  8
ITEM_50
 10
257.0166509568523
 20
207.4866045830673
 30
0.0
 11
241.0166509568523
 21
207.4866045830673
 31
0.0
  0
LINE
  8
ITEM_50
 10
247.0166509568524
 20
193.2161045830558
 30
0.0
 11
251.0166509568524
 21
193.2161045830558
 31
0.0
  0
LINE
  8
ITEM_25
 10
247.4461509568523
 20
202.4866045830559
 30
0.0
 11
247.4461509568523
 21
192.7866045830558
 31
0.0
  0
LINE
  8
ITEM_25
 10
250.5871509568523
 20
202.4866045830559
 30
0.0
 11
250.5871509568523
 21
192.7866045830558
 31
0.0
  0
LINE
  8
ITEM_STP
 10
249.0166509568523
 20
225.528734730521
 30
0.0
 11
249.0166509568524
 21
191.9100564011129
 31
0.0
  0
LINE
  8
ITEM_50
 10
245.016650956853
 20
202.4866045830559
 30
0.0
 11
253.016650956853
 21
202.4866045830559
 31
0.0
  0
LINE
  8
ITEM_50
 10
245.0166509568531
 20
202.486604583056
 30
0.0
 11
245.0166509568531
 21
202.486604583071
 31
0.0
  0
LINE
  8
ITEM_50
 10
253.016650956853
 20
202.486604583056
 30
0.0
 11
253.016650956853
 21
202.486604583071
 31
0.0
  0
LINE
  8
ITEM_50
 10
257.0166509568523
 20
223.4866045830719
 30
0.0
 11
257.0166509568523
 21
203.786604583071
 31
0.0
  0
LINE
  8
ITEM_50
 10
241.0166509568523
 20
223.4866045830719
 30
0.0
 11
241.0166509568523
 21
203.786604583071
 31
0.0
  0
LINE
  8
ITEM_50
 10
257.0166509568523
 20
203.786604583071
 30
0.0
 11
254.316650956853
 21
203.786604583071
 31
0.0
  0
LINE
  8
ITEM_50
 10
257.0166509568523
 20
223.4866045830719
 30
0.0
 11
241.0166509568523
 21
223.4866045830719
 31
0.0
  0
LINE
  8
ITEM_50
 10
142.639320500539
 20
202.486604583055
 30
0.0
 11
150.639320500539
 21
202.4866045830549
 31
0.0
  0
POLYLINE
  8
ITEM_50
 66
     1
 10
0.0
 20
0.0
 30
0.0
  0
VERTEX
  8
ITEM_50
 10
148.6393205005383
 20
202.2866045830562
 30
0.0
  0
VERTEX
  8
ITEM_50
 10
148.6393205005383
 20
202.4866045830559
 30
0.0
  0
SEQEND
  8
ITEM_50
  0
POLYLINE
  8
ITEM_50
 66
     1
 10
0.0
 20
0.0
 30
0.0
  0
VERTEX
  8
ITEM_50
 10
144.6393205005383
 20
202.4866045830559
 30
0.0
  0
VERTEX
  8
ITEM_50
 10
144.6393205005383
 20
202.2866045830562
 30
0.0
  0
SEQEND
  8
ITEM_50
  0
LINE
  8
ITEM_25
 10
145.0688205005383
 20
202.4866045830559
 30
0.0
 11
145.0688205005383
 21
202.2866045830562
 31
0.0
  0
LINE
  8
ITEM_25
 10
148.2098205005383
 20
202.4866045830559
 30
0.0
 11
148.2098205005383
 21
202.2866045830562
 31
0.0
  0
LINE
  8
ITEM_50
 10
201.9163504552101
 20
202.4866045830549
 30
0.0
 11
201.9163504552101
 21
193.2161045830548
 31
0.0
  0
LINE
  8
ITEM_50
 10
201.9163504552101
 20
193.2161045830548
 30
0.0
 11
202.3458504552101
 21
192.7866045830548
 31
0.0
  0
LINE
  8
ITEM_50
 10
202.3458504552101
 20
192.7866045830548
 30
0.0
 11
205.4868504552101
 21
192.7866045830548
 31
0.0
  0
LINE
  8
ITEM_50
 10
205.4868504552101
 20
192.7866045830548
 30
0.0
 11
205.9163504552101
 21
193.2161045830548
 31
0.0
  0
LINE
  8
ITEM_50
 10
205.9163504552101
 20
193.2161045830548
 30
0.0
 11
205.9163504552101
 21
202.4866045830549
 31
0.0
  0
LINE
  8
ITEM_50
 10
247.0166509568524
 20
202.4866045830559
 30
0.0
 11
247.0166509568524
 21
193.2161045830558
 31
0.0
  0
LINE
  8
ITEM_50
 10
247.0166509568524
 20
193.2161045830558
 30
0.0
 11
247.4461509568523
 21
192.7866045830558
 31
0.0
  0
LINE
  8
ITEM_50
 10
247.4461509568523
 20
192.7866045830558
 30
0.0
 11
250.5871509568523
 21
192.7866045830558
 31
0.0
  0
LINE
  8
ITEM_50
 10
250.5871509568523
 20
192.7866045830558
 30
0.0
 11
251.0166509568524
 21
193.2161045830558
 31
0.0
  0
LINE
  8
ITEM_50
 10
251.0166509568524
 20
193.2161045830558
 30
0.0
 11
251.0166509568524
 21
202.4866045830559
 31
0.0
  0
ENDSEC
  0
EOF
